Mr.gamer1520

descargar guitar flash+paths para guitar flash

PRIMERO ALGUNOS SCREENSHOT PARA LOS QUE LES GUSTE GUITAR FLASH





 

LINK DE DESCARGAR:
www.4shared.com/file/4A12CF4a/setup_gf_2_2.html
 


GRACIAS A TODOS LOS QUE ME SIGUEN QUE SON PERO ESOS DOS ME HAN DADO TANTOS PUNTOS Y ESOS PUNTOS ME ALEGRAN LOS DIAS GRACIAS AHORA VAMOS POR LOS PATHS DE GUITAR FLASH PARA FACEBOOK...






Snow (Hey oh) - Red Hot Chilli Peppers 
2-4-3 

___________________________________________________ 
Cry Thunder 
3-3-2-3-3 
___________________________________________________ 
Sulfur 
2-3-2-3-2-2 
___________________________________________________ 
Even Flow 
3-2-2-4 
___________________________________________________ 
Question! 
2-2-2-3 
___________________________________________________ 
Head Crusher 
2-3-2-3 
Path Combo: (130 - 292 - 452 - 651) 
__________________________________________________ 
Enter Sandman: 
3-2-2-2-3 
__________________________________________________ 
Splendid Cradle 
2-2-2-4-2 
__________________________________________________ 
Beast And The Harlot 
2-3-3-2 
__________________________________________________ 
Tears Don't Fall 
3-3-4 
__________________________________________________ 
Breakthrough : 
4-3-3 
__________________________________________________ 
Under in Alias : 
2-2-2-2-2-2 
__________________________________________________ 
Destructive Device : 
4-2-3-2-4-2-4 
__________________________________________________ 
Thrust Into This Game : 
2-3-3-2 
__________________________________________________ 
Forging Metal : 
2-3-2-4-2 
__________________________________________________ 
The Beginning of the End : 
2-3-4 
__________________________________________________ 
Field of Crosses : 
4-4-2-3-3-2 
__________________________________________________ 
Metal Revolution : 
2-3-2-3-2-2 
__________________________________________________ 
Zombie Force : 
3-3-3-2 
__________________________________________________ 
Running in the Night : 
2-3-3-3-2 
__________________________________________________ 
The Other Side : 
3-4-2-2-3 
__________________________________________________ 
Spirit of the Dark : 
3-4-2-4-2 
__________________________________________________ 
Real Time : 
3-3-4-2-3 
__________________________________________________ 
Don t be Afraid : 
2-4-4-2-3-2 
__________________________________________________ 
Walking Tall : 
2-2-4-4 
__________________________________________________ 
Metal Forever : 
2-4-2-3 
__________________________________________________ 
Crisis FX : 
3-3-3-2 
__________________________________________________ 
Corrupted : 
2-3-3 
__________________________________________________ 
Son of the king : 
2-3-2-3-3-4-3-2 
__________________________________________________ 
Shuffle Up and Deal : 
3-3-3-4 
__________________________________________________ 
Rules of Engagement : 
2-2-3-2-2-3 
__________________________________________________ 
Secrets in the Mirror : 
3-3-2-3 
__________________________________________________ 
In the Name of Tragedy : 
4-4-2-2 
__________________________________________________ 
Aurora Glade : 
2-2-2-3-2-3 
__________________________________________________ 
6000 : 
2-4-3-2-3-4 
__________________________________________________ 
Reset the Future : 
2-2-2-3 
__________________________________________________ 
Silent Screams : 
3-3-2-2 
__________________________________________________ 
I Hope : 
2-2-2-4-3 
__________________________________________________ 
With Bare Hands : 
2-2-3 
__________________________________________________ 
Draining My Heart : 
2-3-2-2-2-2 
__________________________________________________ 
Break me Out : 
2-3-2-3-2 
__________________________________________________ 
Out of Silence : 
4-2-3-2-3-2-2 
__________________________________________________ 
Arising Thunder : 
2-2-4-3-2 
__________________________________________________ 
Nothing Will Remain : 
2-2-3-2-2-3-2-3 
__________________________________________________ 
Inferno Veil : 
3-2-2-2-2-4-3 
__________________________________________________ 
Instinct : 
3-4-2-2-3 
__________________________________________________ 
Destroyer : 
2-2-2-2-2-3-2-2 
__________________________________________________ 
The Choice : 
2-4-2-4-2-2-2 
__________________________________________________ 
Jesus Cry : 
3-2-2-3 
__________________________________________________ 
Die For Glory : 
4-3-4-3-2-2 
__________________________________________________ 
Shadowmaker : 
2-4-2-3 
__________________________________________________ 
Before The Storm : 
2-3-2-4 
__________________________________________________ 
The Ride : 
2-3-3 
__________________________________________________ 
Finally Home: 
4-3-2-3-2-2 
__________________________________________________ 
Bleed The Cure: 
3-3-2-3-2 
__________________________________________________ 
For Nothing We Stand: 
2-2-3-4 
__________________________________________________ 
Sweet Child o' Mine: 
2-3-2-2-3-2 
__________________________________________________ 
Smells Like Team Spirit: 
3-3-4 
__________________________________________________ 
Guitar Flash : 
2-2-2-4-2-2-4 
__________________________________________________ 
Nightmare : 
3-3-2-3-3-2 
__________________________________________________ 
Rhymes of Men : 
4-2-2-2-2 
__________________________________________________ 
The Trooper : 
3-3-2-2-4 
__________________________________________________ 
Crystal Night : 
2-3-3-2-3 
__________________________________________________ 
Through The Fire And Flames : 
2-2-2-2-2-2-2-2-3-3 
__________________________________________________ 
Lonely Day : 
4-3 
__________________________________________________ 
We Are The Same : 
3-3-3-4-2 
__________________________________________________ 
The Day A Never Comes : 
2-3-3-2-3-2-3-2-2-2 
__________________________________________________ 
Psychosocial : 
3-4-2-4-2 
__________________________________________________ 
Holy Wars... The Punishment Due : 
2-3-2-4-2-2-4 
__________________________________________________ 
Given Up : 
4-2-2-4 
__________________________________________________ 
Armageddon : 
2-4-3-2-2-2-2 
__________________________________________________ 
Chiron 
2-3-3-2 
__________________________________________________ 
Waking The Demon 
3-2-2-4-2 
__________________________________________________ 
Welcome to The Jungle 
3-2-3-2 
__________________________________________________ 
B.Y.O.B 
2-2-4-2-2-2 
__________________________________________________ 
Californication 
3-3-2-4 
__________________________________________________ 
Heroes of Your Time 
2-2-4-2-2-2-4 
__________________________________________________ 
Warriors of Time 
2-3-2-3-2-2 
__________________________________________________ 
Rock You Like Hurricane 
3-3-2-4 
__________________________________________________ 
Duality 
3-2-4 
__________________________________________________ 
Paradise City 
3-2-3-2-3-2-2 
__________________________________________________ 
Chop Suey! 
2-2-3-2-3 
__________________________________________________ 
Aces High 
3-2-2-2 
__________________________________________________ 
Operation Ground And Pound 
2-3-4-2-3-2 
__________________________________________________ 
Living On a Prayer 
2-4-2-2 



Cry Thunder - Dragonforce 
3-3-2-3-3 
------------------------------------------------------------------------------------------------------------- 
Sulfur - Slipknot 
2-3-2-3-2-2 
------------------------------------------------------------------------------------------------------------- 
Even Flow - Pearl Jam 
3-2-2-4 
------------------------------------------------------------------------------------------------------------- 
Question! - System Of A Down 
2-3-4 
------------------------------------------------------------------------------------------------------------- 
Chop Suey! - System Of A Down 
2-2-3-2-3 
------------------------------------------------------------------------------------------------------------- 
Sweet Child O' Mine - Guns N' Roses 
2-3-2-2-3-2 
------------------------------------------------------------------------------------------------------------- 
Smells Like Teen Spirit - Nirvana 
3-3-4 
------------------------------------------------------------------------------------------------------------- 
Nightmare - Avenged Sevenfold 
3-3-2-3-3-2 
------------------------------------------------------------------------------------------------------------- 
The Trooper - Iron Maiden 
3-3-2-2-4 
------------------------------------------------------------------------------------------------------------- 
Through the Fire and Flames - DragonForce 
2-2-2-2-2-2-2-2-3-3 
------------------------------------------------------------------------------------------------------------- 
Lonely Day - System of a Down 
4-3 
------------------------------------------------------------------------------------------------------------- 
The Day That Never Comes - Metallica 
2-3-3-2-5-3-4-2 
------------------------------------------------------------------------------------------------------------- 
Psychosocial - Slipknot 
3-4-2-4-2 
------------------------------------------------------------------------------------------------------------- 
Holy Wars... The Punishment Due - Megadeth 
2-3-2-4-2-2-4 
------------------------------------------------------------------------------------------------------------- 
Given Up - Linkin Park 
4-2-2-4 
------------------------------------------------------------------------------------------------------------- 
Chiron - All That Remains 
2-2-4-2 
------------------------------------------------------------------------------------------------------------- 
Waking the Demon - Bullet For My Valentine 
3-2-2-4-2 
------------------------------------------------------------------------------------------------------------- 
Welcome to the Jungle - Guns N' Roses 
3-2-3-2 
------------------------------------------------------------------------------------------------------------- 
Californication - Red Hot Chili Peppers 
3-3-2-4 
------------------------------------------------------------------------------------------------------------- 
B.Y.O.B. - System of a Down 
2-2-4-2-2-2 
------------------------------------------------------------------------------------------------------------- 
Heroes of Our Time - DragonForce 
2-2-4-2-2-2-4 
------------------------------------------------------------------------------------------------------------- 
Warriors of Time - Black Tide 
2-3-2-3-2-2 
------------------------------------------------------------------------------------------------------------- 
Duality - Slipknot 
3-2-4 
------------------------------------------------------------------------------------------------------------- 
Paradise City - Guns n' Roses 
3-3-2-2-3-2-2 
------------------------------------------------------------------------------------------------------------- 
Breakthrough - MindFlow 
4-3-3 
------------------------------------------------------------------------------------------------------------- 
Destructive Device - MindFlow 
4-2-3-2-4-2-4 
------------------------------------------------------------------------------------------------------------- 
Thrust Into This Game - MindFlow 
2-3-3-2 
------------------------------------------------------------------------------------------------------------- 
Forging Metal - Hazy Hamlet 
2-3-2-2-2-2 
------------------------------------------------------------------------------------------------------------- 
The Beginning of the End - Hazy Hamlet 
2-3-2-2 
------------------------------------------------------------------------------------------------------------- 
Field of Crosses - Hazy Hamlet 
3-2-3-2-3-3-2 
------------------------------------------------------------------------------------------------------------- 
Metal Revolution - Hazy Hamlet 
2-3-2-3-2-2 
------------------------------------------------------------------------------------------------------------- 
Zombie Force - Rexor 
3-3-3-2 
------------------------------------------------------------------------------------------------------------ 
Running in the Night - Rexor 
2-3-3-3-2 
------------------------------------------------------------------------------------------------------------- 
The Other Side - Rexor 
3-4-2-2-3 
------------------------------------------------------------------------------------------------------------ 
Spirit of the Dark - Rexor 
3-4-2-4-2 
------------------------------------------------------------------------------------------------------------- 
Real Time - Argos 
3-3-4-2-3 
------------------------------------------------------------------------------------------------------------- 
Don't Be Afraid - Argos 
2-4-4-2-3-2 
------------------------------------------------------------------------------------------------------------- 
Walking Tall - MindFlow 
2-2-4-4 
------------------------------------------------------------------------------------------------------------- 
Metal Forever - Hellish War 
2-4-2-3 
------------------------------------------------------------------------------------------------------------- 
Crisis FX - MindFlow 
3-3-3-2 
------------------------------------------------------------------------------------------------------------- 
Corrupted - MindFlow 
2-3-3 
------------------------------------------------------------------------------------------------------------- 
Son of the King - Hellish War 
3-3-2-2-3-2-3-2-2 
------------------------------------------------------------------------------------------------------------- 
Shuffle Up and Deal - MindFlow 
3-3-3-4 
------------------------------------------------------------------------------------------------------------- 
Rules of Engagement - MindFlow 
2-3-4-2-3 
------------------------------------------------------------------------------------------------------------- 
Secrets in the Mirror - Andragonia 
3-3-2-3 
------------------------------------------------------------------------------------------------------------- 
In the Name of Tragedy - Argos 
4-3-3-2 
------------------------------------------------------------------------------------------------------------- 
Aurora Glade - Pandora101 
2-2-3-2-3-2 
------------------------------------------------------------------------------------------------------------- 
6000 - Deventter 
2-4-3-2-3-4 
------------------------------------------------------------------------------------------------------------- 
Reset the Future - MindFlow 
2-2-2-3 
------------------------------------------------------------------------------------------------------------- 
Silent Screams - Andragonia 
3-3-2-2 
------------------------------------------------------------------------------------------------------------- 
I Hope - Pandora101 
2-2-2-4-3 
------------------------------------------------------------------------------------------------------------- 
With Bare Hands - MindFlow 
2-2-3 
------------------------------------------------------------------------------------------------------------- 
Draining My Heart - Andragonia 
2-3-2-2-2-2 
------------------------------------------------------------------------------------------------------------- 
Break Me Out - MindFlow 
2-3-2-3-2 
------------------------------------------------------------------------------------------------------------- 
Out of Silence - Pandora101 
4-2-3-2-3-2-2 
------------------------------------------------------------------------------------------------------------- 
Arising Thunder - Angra 
2-2-4-3-2 
------------------------------------------------------------------------------------------------------------- 
Nothing Will Remain - Pandora101 
2-2-3-2-2-3-2-3 
------------------------------------------------------------------------------------------------------------ 
Inferno Veil - Shaman 
3-2-2-2-2-2-2-3 
------------------------------------------------------------------------------------------------------------- 
Instinct - MindFlow 
3-4-2-2-3 
------------------------------------------------------------------------------------------------------------- 
Destroyer - Hellish War 
2-2-2-4i-3-2-2 
------------------------------------------------------------------------------------------------------------- 
The Choice - Andragonia 
2-4-2-2-3i-3-2 
------------------------------------------------------------------------------------------------------------- 
Jesus Cry - Command6 
3-2-2i-3 
------------------------------------------------------------------------------------------------------------- 
Die For Glory - Hellish War 
4-3-4-3-2-2 
------------------------------------------------------------------------------------------------------------- 
Shadowmaker - Andragonia 
3-3-2-3 
------------------------------------------------------------------------------------------------------------- 
Before the Storm - Command6 
2-3-2-4 
------------------------------------------------------------------------------------------------------------- 
The Ride - MindFlow 
2-3-3 
------------------------------------------------------------------------------------------------------------- 
Finally Home - Shaman 
4-3-2-3-2-2 
------------------------------------------------------------------------------------------------------------- 
Bleed the Cure - Command6 
2-4-2-3-2 
------------------------------------------------------------------------------------------------------------- 
For Nothing We Stand - My Fair Lady 
2-2-3-4 
------------------------------------------------------------------------------------------------------------- 
Guitar Flash - Andragonia 
2-2-2-4-2-2-4 
------------------------------------------------------------------------------------------------------------- 
Rhymes of Men - Pandora101 
4-2-2-2-2 
------------------------------------------------------------------------------------------------------------- 
Crystal Night - Angels Holocaust 
2-4-2-2-3 
------------------------------------------------------------------------------------------------------------- 
We Are the Same - Ecliptyka 
3-3-3-4-2 
------------------------------------------------------------------------------------------------------------- 
Armageddon - Command6 
2-4-3-2-2-2-2 



--------------------------------------------------------------------------------------- 
Even Flow 
3-2-2-4 (Path Combo: 259-472-534-760) 
--------------------------------------------------------------------------------------- 
Paradise City - Guns N Roses 
2-2-4-3-4-2 
--------------------------------------------------------------------------------------- 
B.Y.O.B – Systen of a Down 
2-3-4-2-2-2 
------------------------------------------------------------------------------------------------------------- 
Sweet Child O' Mine - Guns N' Roses 
2-3-2-2-3-2 
------------------------------------------------------------------------------------------------------------- 
Smells Like Teen Spirit - Nirvana 
3-3-4 
------------------------------------------------------------------------------------------------------------- 
Nightmare - Avenged Sevenfold 
3-3-3-2-3-2 
------------------------------------------------------------------------------------------------------------- 
The Trooper - Iron Maiden 
4-2-2-2-4 
------------------------------------------------------------------------------------------------------------- 
Through the Fire and Flames - DragonForce 
2-2-2-2-2-2-2-3-2-3 
------------------------------------------------------------------------------------------------------------- 
Lonely Day - System of a Down 
2-2-3 
------------------------------------------------------------------------------------------------------------- 
The Day That Never Comes - Metallica 
2-4-2-2-3-2-3-2-2-2 
------------------------------------------------------------------------------------------------------------- 
Psychosocial - Slipknot 
3-4-2-4-2 
------------------------------------------------------------------------------------------------------------- 
Holy Wars... The Punishment Due - Megadeth 
2-3-2-4-2-2-4 
------------------------------------------------------------------------------------------- 
Chop Suey! - System Of A Down 
2-2-3-2-3 
------------------------------------------------------------------------------------------------------------- 
Given Up - Linkin Park 
4-2-2-4 
------------------------------------------------------------------------------------------------------------- 
Chiron - All That Remains 
2-3-3-2 
------------------------------------------------------------------------------------------------------------- 
Waking the Demon - Bullet For My Valentine 
2-3-2-4-2 
------------------------------------------------------------------------------------------------------------- 
Welcome to the Jungle - Guns N' Roses 
3-2-3-2 
------------------------------------------------------------------------------------------------------------- 
Breakthrough - MindFlow 
4-3-3 
------------------------------------------------------------------------------------------------------------- 
Under an Alias - MindFlow 
2-2-2-2-2-2 
------------------------------------------------------------------------------------------------------------- 
Destructive Device - MindFlow 
4-2-4-4-2-2-3 
------------------------------------------------------------------------------------------------------------- 
Thrust Into This Game - MindFlow 
2-3-3-2 
------------------------------------------------------------------------------------------------------------- 
Forging Metal - Hazy Hamlet 
2-2-3-2-4 
------------------------------------------------------------------------------------------------------------- 
The Beginning of the End - Hazy Hamlet 
3-2-3-2 
------------------------------------------------------------------------------------------------------------- 
Field of Crosses - Hazy Hamlet 
3-2-2-3-3-3-2 
------------------------------------------------------------------------------------------------------------- 
Metal Revolution - Hazy Hamlet 
4-3-3-3 
------------------------------------------------------------------------------------------------------------- 
Zombie Force - Rexor 
3-3-3-2 
------------------------------------------------------------------------------------------------------------- 
Running in the Night - Rexor 
2-3-3-3-2 
------------------------------------------------------------------------------------------------------------- 
The Other Side - Rexor 
2-4-2-2-3 
------------------------------------------------------------------------------------------------------------- 
Spirit of the Dark - Rexor 
3-4-2-4-2 
------------------------------------------------------------------------------------------------------------- 
Real Time - Argos 
3-3-4-2-3 
------------------------------------------------------------------------------------------------------------- 
Don't Be Afraid - Argos 
2-4-4-2-3-2 
------------------------------------------------------------------------------------------------------------ 
Walking Tall - MindFlow 
2-2-4-4 
------------------------------------------------------------------------------------------------------------- 
Metal Forever - Hellish War 
2-3-3-2-2-2-3 
------------------------------------------------------------------------------------------------------------- 
Crisis FX - MindFlow 
3-3-3-2 
------------------------------------------------------------------------------------------------------------- 
Corrupted - MindFlow 
3-2-3 
------------------------------------------------------------------------------------------------------------- 
Son of the King - Hellish War 
2-3-2-3-3-2-3-2-2 
------------------------------------------------------------------------------------------------------------- 
Shuffle Up and Deal - MindFlow 
3-3-3-4 
------------------------------------------------------------------------------------------------------------- 
Rules of Engagement - MindFlow 
2-3-2-3-2-2 
------------------------------------------------------------------------------------------------------------ 
Secrets in the Mirror - Andragonia 
2-4-2-3 
------------------------------------------------------------------------------------------------------------- 
In the Name of Tragedy - Argos 
4-4-2-2 
------------------------------------------------------------------------------------------------------------- 
Aurora Glade - Pandora101 
2-2-2-3-2-3 
------------------------------------------------------------------------------------------------------------- 
6000 - Deventter 
2-4-3-2-3-4 
------------------------------------------------------------------------------------------------------------- 
Reset the Future - MindFlow 
2-2-2-3 
------------------------------------------------------------------------------------------------------------- 
Silent Screams - Andragonia 
3-3-2-2 
------------------------------------------------------------------------------------------------------------- 
I Hope - Pandora101 
2-4-3-4 
------------------------------------------------------------------------------------------------------------- 
With Bare Hands - MindFlow 
2-3-2 
------------------------------------------------------------------------------------------------------------- 
Draining My Heart - Andragonia 
2-3-2-2-2-2 
------------------------------------------------------------------------------------------------------------- 
Break Me Out - MindFlow 
3-2-2-3-2 
------------------------------------------------------------------------------------------------------------- 
Out of Silence - Pandora101 
4-2-3-2-3-2-2 
------------------------------------------------------------------------------------------------------------- 
Arising Thunder - Angra 
2-2-4-3-2 
------------------------------------------------------------------------------------------------------------- 
Nothing Will Remain - Pandora101 
2-2-2-3-2-3-2-3 
------------------------------------------------------------------------------------------------------------- 
Inferno Veil - Shaman 
3-2-2-2-4-2-3 
------------------------------------------------------------------------------------------------------------- 
Instinct - MindFlow 
3-4-2-2-3 
------------------------------------------------------------------------------------------------------------- 
Destroyer - Hellish War 
4-4-2-3-2-2 
------------------------------------------------------------------------------------------------------------- 
The Choice - Andragonia 
3-2-3-2-2-2-2-2 
------------------------------------------------------------------------------------------------------------- 
Jesus Cry - Command6 
3-2-2-3 
------------------------------------------------------------------------------------------------------------- 
Die For Glory - Hellish War 
4-3-2-2-3-2-2 
------------------------------------------------------------------------------------------------------------- 
Shadowmaker - Andragonia 
3-3-2-3 
------------------------------------------------------------------------------------------------------------- 
Before the Storm - Command6 
2-3-2-2-2 
------------------------------------------------------------------------------------------------------------- 
The Ride - MindFlow 
2-3-3 
------------------------------------------------------------------------------------------------------------- 
Finally Home - Shaman 
4-3-2-3-2-2 
------------------------------------------------------------------------------------------------------------- 
Bleed the Cure – Command6 
3-3-2-3-2 
------------------------------------------------------------------------------------------------------------- 
For Nothing We Stand - My Fair Lady 
3-2-3-3 
------------------------------------------------------------------------------------------------------------- 
Guitar Flash - Andragonia 
2-2-2-4-2-2-4 
------------------------------------------------------------------------------------------------------------- 
Rhymes of Men - Pandora101 
4-2-2-2-2 
------------------------------------------------------------------------------------------------------------- 
Crystal Night - Angels Holocaust 
2-4-2-2-3 
------------------------------------------------------------------------------------------------------------- 
We Are the Same - Ecliptyka 
2-3-2-4-2-2 
------------------------------------------------------------------------------------------------------------- 
Armageddon - Command6 
2-3-2-3-3-2-2 



Enter Sandman 
2-3-3-4 
------------------------------------------------------------------------------------------------------------- 
Even Flow 
3-2-2-4 
------------------------------------------------------------------------------------------------------------- 
Operation Ground And Pound 
2-2-2-3-2-3-2 
------------------------------------------------------------------------------------------------------------- 
Waking The Demon 
2-3-2-4-2 
------------------------------------------------------------------------------------------------------------- 
Son of The King 
3-3-3-4-2-3-4. 
------------------------------------------------------------------------------------------------------------- 
6000 
2-4-3-2-3-4 
------------------------------------------------------------------------------------------------------------- 
Arising Thunder 
2-2-4-2-3 
------------------------------------------------------------------------------------------------------------- 
Armageddon 
2-3-2-3-3-2-2 
------------------------------------------------------------------------------------------------------------- 
B.Y.O.B 
2-2-4-2-4 
------------------------------------------------------------------------------------------------------------- 
Before the Storm 
2-3-2-4 
------------------------------------------------------------------------------------------------------------- 
Bleed The Cure 
2-4-2-3-2 
------------------------------------------------------------------------------------------------------------- 
Break Me Out 
2-3-2-3-2 
------------------------------------------------------------------------------------------------------------- 
Californication 
3-3-2-4 
------------------------------------------------------------------------------------------------------------- 
Chiron 
2-3-3-2 
------------------------------------------------------------------------------------------------------------- 
Chop Suey! 
2-2-3-2-3 
------------------------------------------------------------------------------------------------------------- 
Corrupted 
2-3-3 
------------------------------------------------------------------------------------------------------------- 
Crisis FX 
3-3-3-2 
------------------------------------------------------------------------------------------------------------- 
Cristal Night 
2-4-2-2-3 
------------------------------------------------------------------------------------------------------------- 
Destroyer 
4-2-4-3-2-2 
------------------------------------------------------------------------------------------------------------- 
Destructive Device 
4-2-3-2-4-2-4 
------------------------------------------------------------------------------------------------------------- 
Die for Glory 
3-3-4-4-2-2 
------------------------------------------------------------------------------------------------------------- 
Dont be afraid 
2-4-4-2-3-2 
------------------------------------------------------------------------------------------------------------- 
Duality 
3-2-4 
------------------------------------------------------------------------------------------------------------- 
Field of Crosses 
4-4-2-3-3-2 
------------------------------------------------------------------------------------------------------------- 
Finally Home 
3-4-2-3-2-2 
------------------------------------------------------------------------------------------------------------- 
For Nothing We Stand 
3-2-3-3 
------------------------------------------------------------------------------------------------------------- 
Forging Metal 
2-2-2-3-4 
------------------------------------------------------------------------------------------------------------- 
Given Up 
4-2-2-4 
------------------------------------------------------------------------------------------------------------- 
Guitar Flash 
2-2-2-4-2-2-4 
------------------------------------------------------------------------------------------------------------- 
Heroes of Our Time 
2-2-4-2-2-2-4 
------------------------------------------------------------------------------------------------------------- 
Holy Wars... The Punishment Due 
2-3-2-4-2-2-4 
------------------------------------------------------------------------------------------------------------- 
I Hope 
2-3-4-4 
------------------------------------------------------------------------------------------------------------- 
In the Name of Tragedy 
4-4-2-2 
------------------------------------------------------------------------------------------------------------- 
Inferno Veil 
3-3-3-2-2-2-3 
------------------------------------------------------------------------------------------------------------- 
Instinct 
3-4-2-2-3 
------------------------------------------------------------------------------------------------------------- 
Jesus Cry 
3-2-2-3 
------------------------------------------------------------------------------------------------------------- 
Lonely Day 
4-3 
------------------------------------------------------------------------------------------------------------- 
Metal Forever 
3-2-3-2-2-2-3 
------------------------------------------------------------------------------------------------------------- 
Metal Revolution 
4-3-2-3-1 
------------------------------------------------------------------------------------------------------------- 
Nightmare 
3-3-3-2-3-2 
------------------------------------------------------------------------------------------------------------- 
Nothing Will Remain 
2-2-2-3-2-2-3-3 
------------------------------------------------------------------------------------------------------------- 
Out of Silence 
4-2-3-2-3-4 
------------------------------------------------------------------------------------------------------------- 
Paradise City 
3-2-3-2-3-2-2 
------------------------------------------------------------------------------------------------------------- 
Psychosocial 
3-4-2-2-2-2 
------------------------------------------------------------------------------------------------------------- 
Real Time 
3-3-4-2-2-1 
------------------------------------------------------------------------------------------------------------- 
Reset the Future 
2-2-2-3 
------------------------------------------------------------------------------------------------------------- 
Rhymes of Men 
4-3-3-2 
------------------------------------------------------------------------------------------------------------- 
Rock You Like a Hurricane 
2-2-2-2-2-2 
------------------------------------------------------------------------------------------------------------- 
Rules of Engagement 
3-2-2-3-2-2 
------------------------------------------------------------------------------------------------------------- 
Running in the Night 
3-3-3-3-2 
------------------------------------------------------------------------------------------------------------- 
Secrets in the Mirror 
3-3-3-2 
------------------------------------------------------------------------------------------------------------- 
Shadowmake 
2-2-4-3 
------------------------------------------------------------------------------------------------------------- 
Shuffle Up and Deal 
3-3-3-4 
------------------------------------------------------------------------------------------------------------- 
Silent Screams 
3-3-2-2 
------------------------------------------------------------------------------------------------------------- 
Smells Like Teen Spirit 
3-3-4 
------------------------------------------------------------------------------------------------------------- 
Somewhere I Belong 
4-2-44-2-4 
------------------------------------------------------------------------------------------------------------- 
Son of the King 
3-3-3-4-2-3-4 
------------------------------------------------------------------------------------------------------------- 
Spirit of the Dark 
3-4-4-2-2 
------------------------------------------------------------------------------------------------------------- 
Sweet Child O' Mine 
2-3-2-2-3-2 
------------------------------------------------------------------------------------------------------------- 
The Beginning of the End 
2-3-4 
------------------------------------------------------------------------------------------------------------- 
The Choice 
2-2-4-2-2-4-2 
------------------------------------------------------------------------------------------------------------- 
The Day That Never Comes 
2-2-4-2-3-2-3-2-2-2 
------------------------------------------------------------------------------------------------------------- 
The Other Side 
2-3-2-2-2-2 
------------------------------------------------------------------------------------------------------------- 
The Ride 
2-3-3 
------------------------------------------------------------------------------------------------------------- 
The Tropper 
4-2-2-2-4 
------------------------------------------------------------------------------------------------------------- 
Through The Fire And Flames 
2-2-2-2-2-2-2-2-3-3 
------------------------------------------------------------------------------------------------------------- 
Thrust Into This Game 
2-3-4-2 
------------------------------------------------------------------------------------------------------------- 
Under an Alias 
2-2-2-2-2-2 
------------------------------------------------------------------------------------------------------------- 
Waking The Demon 
2-3-2-4-2 
------------------------------------------------------------------------------------------------------------- 
Walking Tall 
2-2-4-4 
------------------------------------------------------------------------------------------------------------- 
Warriors of Time 
2-3-2-3-2-2 
------------------------------------------------------------------------------------------------------------- 
We are the Same 
3-3-2-3-2-2 
------------------------------------------------------------------------------------------------------------- 
Welcome to The Jungle 
3-2-3-2 
------------------------------------------------------------------------------------------------------------- 
With bare hands 
2-3-2 
------------------------------------------------------------------------------------------------------------- 
Zombie Force 
3-3-3-2